ISO-10303-21;
HEADER;
FILE_DESCRIPTION (( 'STEP AP203' ),
    '1' );
FILE_NAME ('BK7-LNPBSC-20-532.STEP',
    '2021-01-05T02:01:29',
    ( '' ),
    ( '' ),
    'SwSTEP 2.0',
    'SolidWorks 2020',
    '' );
FILE_SCHEMA (( 'CONFIG_CONTROL_DESIGN' ));
ENDSEC;

DATA;
#1 = COORDINATED_UNIVERSAL_TIME_OFFSET ( 8, 0, .AHEAD. ) ;
#2 = ORIENTED_EDGE ( 'NONE', *, *, #23, .T. ) ;
#3 = APPROVAL_DATE_TIME ( #255, #230 ) ;
#4 = VERTEX_POINT ( 'NONE', #277 ) ;
#5 = APPROVAL_ROLE ( '' ) ;
#6 = EDGE_LOOP ( 'NONE', ( #84, #57, #111, #110 ) ) ;
#7 = VERTEX_POINT ( 'NONE', #82 ) ;
#8 = EDGE_CURVE ( 'NONE', #256, #4, #187, .T. ) ;
#9 = CC_DESIGN_APPROVAL ( #175, ( #144 ) ) ;
#10 = CARTESIAN_POINT ( 'NONE',  ( -9.999999999999998224, 10.00000000000000355, 10.00000000000000000 ) ) ;
#11 = ORIENTED_EDGE ( 'NONE', *, *, #223, .F. ) ;
#12 = PERSON_AND_ORGANIZATION_ROLE ( 'design_supplier' ) ;
#13 = ADVANCED_FACE ( 'NONE', ( #301 ), #154, .F. ) ;
#14 = CARTESIAN_POINT ( 'NONE',  ( -10.00000000000000178, -9.999999999999996447, 10.00000000000000000 ) ) ;
#15 = AXIS2_PLACEMENT_3D ( 'NONE', #91, #245, #200 ) ;
#16 = DIRECTION ( 'NONE',  ( -0.7071067811865475727, -0.7071067811865474617, 0.000000000000000000 ) ) ;
#17 = CARTESIAN_POINT ( 'NONE',  ( 10.00000000000000000, 10.00000000000000000, 10.00000000000000000 ) ) ;
#18 = LINE ( 'NONE', #115, #165 ) ;
#19 = FACE_OUTER_BOUND ( 'NONE', #297, .T. ) ;
#20 = APPROVAL ( #229, 'UNSPECIFIED' ) ;
#21 = EDGE_CURVE ( 'NONE', #31, #231, #303, .T. ) ;
#22 = CARTESIAN_POINT ( 'NONE',  ( -10.00000000000000178, -9.999999999999996447, -10.00000000000000000 ) ) ;
#23 = EDGE_CURVE ( 'NONE', #4, #280, #263, .T. ) ;
#24 = FACE_OUTER_BOUND ( 'NONE', #151, .T. ) ;
#25 = CARTESIAN_POINT ( 'NONE',  ( 10.00000000000000178, 9.999999999999998224, -10.00000000000000000 ) ) ;
#26 = AXIS2_PLACEMENT_3D ( 'NONE', #40, #195, #244 ) ;
#27 = PERSON_AND_ORGANIZATION ( #310, #117 ) ;
#28 = SECURITY_CLASSIFICATION_LEVEL ( 'unclassified' ) ;
#29 = EDGE_LOOP ( 'NONE', ( #103, #234, #163 ) ) ;
#30 = DATE_AND_TIME ( #194, #217 ) ;
#31 = VERTEX_POINT ( 'NONE', #311 ) ;
#32 = VECTOR ( 'NONE', #16, 1000.000000000000000 ) ;
#33 = ORIENTED_EDGE ( 'NONE', *, *, #179, .T. ) ;
#34 = CC_DESIGN_PERSON_AND_ORGANIZATION_ASSIGNMENT ( #81, #264, ( #133 ) ) ;
#35 = MANIFOLD_SOLID_BREP ( 'Í¹Ì¨-À', #177 ) ;
#36 = EDGE_LOOP ( 'NONE', ( #210, #113, #131, #89 ) ) ;
#37 = AXIS2_PLACEMENT_3D ( 'NONE', #88, #190, #216 ) ;
#38 = LINE ( 'NONE', #92, #204 ) ;
#39 = DIRECTION ( 'NONE',  ( -0.000000000000000000, 0.000000000000000000, -1.000000000000000000 ) ) ;
#40 = CARTESIAN_POINT ( 'NONE',  ( 0.000000000000000000, 0.000000000000000000, -10.00000000000000000 ) ) ;
#41 = VECTOR ( 'NONE', #42, 1000.000000000000000 ) ;
#42 = DIRECTION ( 'NONE',  ( -0.000000000000000000, -0.000000000000000000, -1.000000000000000000 ) ) ;
#43 = PLANE ( 'NONE',  #220 ) ;
#44 = EDGE_CURVE ( 'NONE', #231, #7, #286, .T. ) ;
#45 = CARTESIAN_POINT ( 'NONE',  ( 0.000000000000000000, 0.000000000000000000, -10.00000000000000000 ) ) ;
#46 = LINE ( 'NONE', #48, #313 ) ;
#47 = LINE ( 'NONE', #247, #104 ) ;
#48 = CARTESIAN_POINT ( 'NONE',  ( 10.00000000000000178, 9.999999999999998224, 10.00000000000000000 ) ) ;
#49 = SECURITY_CLASSIFICATION ( '', '', #28 ) ;
#50 = PERSON_AND_ORGANIZATION ( #310, #117 ) ;
#51 = VERTEX_POINT ( 'NONE', #167 ) ;
#52 = PERSON_AND_ORGANIZATION_ROLE ( 'design_owner' ) ;
#53 = ORIENTED_EDGE ( 'NONE', *, *, #273, .F. ) ;
#54 = VECTOR ( 'NONE', #221, 1000.000000000000000 ) ;
#55 = PERSON_AND_ORGANIZATION ( #310, #117 ) ;
#56 = ORIENTED_EDGE ( 'NONE', *, *, #8, .F. ) ;
#57 = ORIENTED_EDGE ( 'NONE', *, *, #44, .F. ) ;
#58 = ORIENTED_EDGE ( 'NONE', *, *, #273, .T. ) ;
#59 = DIRECTION ( 'NONE',  ( 2.220446049250313081E-16, 1.000000000000000000, 0.000000000000000000 ) ) ;
#60 = DIRECTION ( 'NONE',  ( 1.000000000000000000, 0.000000000000000000, 0.000000000000000000 ) ) ;
#61 = PERSON_AND_ORGANIZATION ( #310, #117 ) ;
#62 = CARTESIAN_POINT ( 'NONE',  ( -9.999999999999998224, -10.00000000000000000, -10.00000000000000000 ) ) ;
#63 = FACE_OUTER_BOUND ( 'NONE', #36, .T. ) ;
#64 = AXIS2_PLACEMENT_3D ( 'NONE', #119, #222, #72 ) ;
#65 = CARTESIAN_POINT ( 'NONE',  ( -9.999999999999998224, -10.00000000000000000, 10.00000000000000000 ) ) ;
#66 = ADVANCED_FACE ( 'NONE', ( #240 ), #139, .F. ) ;
#67 =( LENGTH_UNIT ( ) NAMED_UNIT ( * ) SI_UNIT ( .MILLI., .METRE. ) );
#68 = CARTESIAN_POINT ( 'NONE',  ( 10.00000000000000178, 9.999999999999998224, 10.00000000000000000 ) ) ;
#69 = LOCAL_TIME ( 10, 1, 29.00000000000000000, #205 ) ;
#70 = FACE_OUTER_BOUND ( 'NONE', #29, .T. ) ;
#71 = CARTESIAN_POINT ( 'NONE',  ( 10.00000000000000000, 10.00000000000000000, -10.00000000000000000 ) ) ;
#72 = DIRECTION ( 'NONE',  ( 0.000000000000000000, 0.000000000000000000, 1.000000000000000000 ) ) ;
#73 = COORDINATED_UNIVERSAL_TIME_OFFSET ( 8, 0, .AHEAD. ) ;
#74 = EDGE_LOOP ( 'NONE', ( #312, #306, #53, #182 ) ) ;
#75 = VECTOR ( 'NONE', #266, 1000.000000000000000 ) ;
#76 = APPROVAL_DATE_TIME ( #30, #20 ) ;
#77 = ORIENTED_EDGE ( 'NONE', *, *, #8, .T. ) ;
#78 = COORDINATED_UNIVERSAL_TIME_OFFSET ( 8, 0, .AHEAD. ) ;
#79 = CARTESIAN_POINT ( 'NONE',  ( -9.999999999999998224, -10.00000000000000000, 10.00000000000000000 ) ) ;
#80 = EDGE_CURVE ( 'NONE', #31, #85, #315, .T. ) ;
#81 = PERSON_AND_ORGANIZATION ( #310, #117 ) ;
#82 = CARTESIAN_POINT ( 'NONE',  ( 10.00000000000000178, -10.00000000000000000, -10.00000000000000000 ) ) ;
#83 = AXIS2_PLACEMENT_3D ( 'NONE', #196, #164, #287 ) ;
#84 = ORIENTED_EDGE ( 'NONE', *, *, #123, .T. ) ;
#85 = VERTEX_POINT ( 'NONE', #62 ) ;
#86 = FACE_OUTER_BOUND ( 'NONE', #6, .T. ) ;
#87 = EDGE_CURVE ( 'NONE', #259, #280, #171, .T. ) ;
#88 = CARTESIAN_POINT ( 'NONE',  ( -10.00000000000000178, -9.999999999999996447, 10.00000000000000000 ) ) ;
#89 = ORIENTED_EDGE ( 'NONE', *, *, #101, .T. ) ;
#90 = VECTOR ( 'NONE', #140, 1000.000000000000000 ) ;
#91 = CARTESIAN_POINT ( 'NONE',  ( -9.999999999999998224, -10.00000000000000000, 10.00000000000000000 ) ) ;
#92 = CARTESIAN_POINT ( 'NONE',  ( -9.999999999999998224, -10.00000000000000000, -10.00000000000000000 ) ) ;
#93 = EDGE_CURVE ( 'NONE', #259, #126, #242, .T. ) ;
#94 = FACE_OUTER_BOUND ( 'NONE', #74, .T. ) ;
#95 = CC_DESIGN_SECURITY_CLASSIFICATION ( #49, ( #133 ) ) ;
#96 = DIRECTION ( 'NONE',  ( -0.000000000000000000, 0.000000000000000000, -1.000000000000000000 ) ) ;
#97 = DIRECTION ( 'NONE',  ( 1.000000000000000000, 0.000000000000000000, 0.000000000000000000 ) ) ;
#98 = UNCERTAINTY_MEASURE_WITH_UNIT (LENGTH_MEASURE( 1.000000000000000082E-05 ), #67, 'distance_accuracy_value', 'NONE');
#99 = APPROVAL_PERSON_ORGANIZATION ( #232, #230, #5 ) ;
#100 = DIRECTION ( 'NONE',  ( -0.000000000000000000, 0.000000000000000000, 1.000000000000000000 ) ) ;
#101 = EDGE_CURVE ( 'NONE', #126, #256, #18, .T. ) ;
#102 = CALENDAR_DATE ( 2021, 5, 1 ) ;
#103 = ORIENTED_EDGE ( 'NONE', *, *, #214, .F. ) ;
#104 = VECTOR ( 'NONE', #292, 1000.000000000000000 ) ;
#105 = ORIENTED_EDGE ( 'NONE', *, *, #191, .T. ) ;
#106 = VERTEX_POINT ( 'NONE', #265 ) ;
#107 = ORIENTED_EDGE ( 'NONE', *, *, #191, .F. ) ;
#108 = AXIS2_PLACEMENT_3D ( 'NONE', #283, #316, #59 ) ;
#109 = CC_DESIGN_DATE_AND_TIME_ASSIGNMENT ( #153, #238, ( #144 ) ) ;
#110 = ORIENTED_EDGE ( 'NONE', *, *, #80, .T. ) ;
#111 = ORIENTED_EDGE ( 'NONE', *, *, #21, .F. ) ;
#112 = ADVANCED_FACE ( 'NONE', ( #169 ), #219, .T. ) ;
#113 = ORIENTED_EDGE ( 'NONE', *, *, #87, .F. ) ;
#114 = LINE ( 'NONE', #134, #241 ) ;
#115 = CARTESIAN_POINT ( 'NONE',  ( -10.00000000000000178, -9.999999999999996447, 10.00000000000000000 ) ) ;
#116 = CARTESIAN_POINT ( 'NONE',  ( 10.00000000000000178, 9.999999999999998224, -10.00000000000000000 ) ) ;
#117 = ORGANIZATION ( 'UNSPECIFIED', 'UNSPECIFIED', '' ) ;
#118 = ADVANCED_FACE ( 'NONE', ( #94 ), #136, .F. ) ;
#119 = CARTESIAN_POINT ( 'NONE',  ( 10.00000000000000178, 9.999999999999998224, 10.00000000000000000 ) ) ;
#120 = CARTESIAN_POINT ( 'NONE',  ( -10.00000000000000178, -9.999999999999996447, 10.00000000000000000 ) ) ;
#121 = VECTOR ( 'NONE', #236, 1000.000000000000000 ) ;
#122 = DIRECTION ( 'NONE',  ( 1.000000000000000000, 0.000000000000000000, 0.000000000000000000 ) ) ;
#123 = EDGE_CURVE ( 'NONE', #85, #7, #38, .T. ) ;
#124 = PERSON_AND_ORGANIZATION_ROLE ( 'classification_officer' ) ;
#125 = DIRECTION ( 'NONE',  ( 1.000000000000000000, 0.000000000000000000, 0.000000000000000000 ) ) ;
#126 = VERTEX_POINT ( 'NONE', #14 ) ;
#127 = PERSON_AND_ORGANIZATION ( #310, #117 ) ;
#128 = CLOSED_SHELL ( 'NONE', ( #152, #66, #13, #112, #138 ) ) ;
#129 = ORIENTED_EDGE ( 'NONE', *, *, #295, .F. ) ;
#130 = CALENDAR_DATE ( 2021, 5, 1 ) ;
#131 = ORIENTED_EDGE ( 'NONE', *, *, #93, .T. ) ;
#132 = ORIENTED_EDGE ( 'NONE', *, *, #300, .T. ) ;
#133 = PRODUCT_DEFINITION_FORMATION_WITH_SPECIFIED_SOURCE ( 'ANY', '', #271, .NOT_KNOWN. ) ;
#134 = CARTESIAN_POINT ( 'NONE',  ( 10.00000000000000000, 10.00000000000000000, -10.00000000000000000 ) ) ;
#135 = DATE_AND_TIME ( #130, #227 ) ;
#136 = PLANE ( 'NONE',  #83 ) ;
#137 = CC_DESIGN_PERSON_AND_ORGANIZATION_ASSIGNMENT ( #155, #150, ( #144 ) ) ;
#138 = ADVANCED_FACE ( 'NONE', ( #173 ), #268, .F. ) ;
#139 = PLANE ( 'NONE',  #37 ) ;
#140 = DIRECTION ( 'NONE',  ( -0.000000000000000000, 0.000000000000000000, -1.000000000000000000 ) ) ;
#141 = CARTESIAN_POINT ( 'NONE',  ( 10.00000000000000000, 10.00000000000000000, 10.00000000000000000 ) ) ;
#142 = CARTESIAN_POINT ( 'NONE',  ( 10.00000000000000178, -10.00000000000000000, 10.00000000000000000 ) ) ;
#143 = APPLICATION_CONTEXT ( 'configuration controlled 3d designs of mechanical parts and assemblies' ) ;
#144 = PRODUCT_DEFINITION ( 'UNKNOWN', '', #133, #170 ) ;
#145 = CARTESIAN_POINT ( 'NONE',  ( 0.000000000000000000, 0.000000000000000000, 10.00000000000000000 ) ) ;
#146 = EDGE_CURVE ( 'NONE', #280, #256, #114, .T. ) ;
#147 = LINE ( 'NONE', #68, #211 ) ;
#148 = VECTOR ( 'NONE', #96, 1000.000000000000000 ) ;
#149 = LINE ( 'NONE', #321, #318 ) ;
#150 = PERSON_AND_ORGANIZATION_ROLE ( 'creator' ) ;
#151 = EDGE_LOOP ( 'NONE', ( #33, #11, #261, #254 ) ) ;
#152 = ADVANCED_FACE ( 'NONE', ( #63 ), #43, .F. ) ;
#153 = DATE_AND_TIME ( #252, #197 ) ;
#154 = PLANE ( 'NONE',  #172 ) ;
#155 = PERSON_AND_ORGANIZATION ( #310, #117 ) ;
#156 = APPROVAL_PERSON_ORGANIZATION ( #55, #20, #304 ) ;
#157 = VERTEX_POINT ( 'NONE', #10 ) ;
#158 = CALENDAR_DATE ( 2021, 5, 1 ) ;
#159 = DIRECTION ( 'NONE',  ( -2.220446049250313081E-16, -1.000000000000000000, 0.000000000000000000 ) ) ;
#160 = ORIENTED_EDGE ( 'NONE', *, *, #87, .T. ) ;
#161 = CC_DESIGN_PERSON_AND_ORGANIZATION_ASSIGNMENT ( #127, #124, ( #49 ) ) ;
#162 = ADVANCED_FACE ( 'NONE', ( #86 ), #314, .F. ) ;
#163 = ORIENTED_EDGE ( 'NONE', *, *, #123, .F. ) ;
#164 = DIRECTION ( 'NONE',  ( 0.7071067811865474617, -0.7071067811865475727, 0.000000000000000000 ) ) ;
#165 = VECTOR ( 'NONE', #39, 1000.000000000000000 ) ;
#166 = CC_DESIGN_PERSON_AND_ORGANIZATION_ASSIGNMENT ( #61, #12, ( #133 ) ) ;
#167 = CARTESIAN_POINT ( 'NONE',  ( 10.00000000000000178, 9.999999999999998224, 10.00000000000000000 ) ) ;
#168 = ORIENTED_EDGE ( 'NONE', *, *, #146, .T. ) ;
#169 = FACE_OUTER_BOUND ( 'NONE', #305, .T. ) ;
#170 = DESIGN_CONTEXT ( 'detailed design', #143, 'design' ) ;
#171 = LINE ( 'NONE', #281, #90 ) ;
#172 = AXIS2_PLACEMENT_3D ( 'NONE', #184, #159, #208 ) ;
#173 = FACE_OUTER_BOUND ( 'NONE', #284, .T. ) ;
#174 = LINE ( 'NONE', #25, #54 ) ;
#175 = APPROVAL ( #203, 'UNSPECIFIED' ) ;
#176 = PRODUCT_RELATED_PRODUCT_CATEGORY ( 'detail', '', ( #271 ) ) ;
#177 = CLOSED_SHELL ( 'NONE', ( #118, #162, #291, #224, #199 ) ) ;
#178 = DIRECTION ( 'NONE',  ( -0.7071067811865475727, -0.7071067811865474617, 0.000000000000000000 ) ) ;
#179 = EDGE_CURVE ( 'NONE', #7, #106, #174, .T. ) ;
#180 = LINE ( 'NONE', #198, #148 ) ;
#181 = DATE_AND_TIME ( #102, #235 ) ;
#182 = ORIENTED_EDGE ( 'NONE', *, *, #223, .T. ) ;
#183 = CARTESIAN_POINT ( 'NONE',  ( 0.000000000000000000, 0.000000000000000000, 0.000000000000000000 ) ) ;
#184 = CARTESIAN_POINT ( 'NONE',  ( 10.00000000000000000, 10.00000000000000000, 10.00000000000000000 ) ) ;
#185 = DIRECTION ( 'NONE',  ( 1.000000000000000000, 0.000000000000000000, 0.000000000000000000 ) ) ;
#186 = APPROVAL_STATUS ( 'not_yet_approved' ) ;
#187 = LINE ( 'NONE', #279, #121 ) ;
#188 = EDGE_LOOP ( 'NONE', ( #56, #193, #132, #226 ) ) ;
#189 = EDGE_LOOP ( 'NONE', ( #308, #129, #105, #160 ) ) ;
#190 = DIRECTION ( 'NONE',  ( 1.000000000000000000, -2.220446049250313081E-16, 0.000000000000000000 ) ) ;
#191 = EDGE_CURVE ( 'NONE', #157, #259, #47, .T. ) ;
#192 = VECTOR ( 'NONE', #185, 1000.000000000000000 ) ;
#193 = ORIENTED_EDGE ( 'NONE', *, *, #101, .F. ) ;
#194 = CALENDAR_DATE ( 2021, 5, 1 ) ;
#195 = DIRECTION ( 'NONE',  ( 0.000000000000000000, -0.000000000000000000, 1.000000000000000000 ) ) ;
#196 = CARTESIAN_POINT ( 'NONE',  ( 10.00000000000000178, 9.999999999999998224, 10.00000000000000000 ) ) ;
#197 = LOCAL_TIME ( 10, 1, 29.00000000000000000, #78 ) ;
#198 = CARTESIAN_POINT ( 'NONE',  ( -9.999999999999998224, 10.00000000000000355, 10.00000000000000000 ) ) ;
#199 = ADVANCED_FACE ( 'NONE', ( #70 ), #250, .F. ) ;
#200 = DIRECTION ( 'NONE',  ( 0.000000000000000000, -0.000000000000000000, 1.000000000000000000 ) ) ;
#201 = EDGE_CURVE ( 'NONE', #231, #51, #149, .T. ) ;
#202 = DIRECTION ( 'NONE',  ( -0.7071067811865475727, -0.7071067811865474617, 0.000000000000000000 ) ) ;
#203 = APPROVAL_STATUS ( 'not_yet_approved' ) ;
#204 = VECTOR ( 'NONE', #60, 1000.000000000000000 ) ;
#205 = COORDINATED_UNIVERSAL_TIME_OFFSET ( 8, 0, .AHEAD. ) ;
#206 = ORIENTED_EDGE ( 'NONE', *, *, #21, .T. ) ;
#207 = DATE_TIME_ROLE ( 'classification_date' ) ;
#208 = DIRECTION ( 'NONE',  ( 0.000000000000000000, 0.000000000000000000, 1.000000000000000000 ) ) ;
#209 = SHAPE_DEFINITION_REPRESENTATION ( #249, #253 ) ;
#210 = ORIENTED_EDGE ( 'NONE', *, *, #146, .F. ) ;
#211 = VECTOR ( 'NONE', #202, 1000.000000000000000 ) ;
#212 = ORIENTED_EDGE ( 'NONE', *, *, #201, .T. ) ;
#213 = DIRECTION ( 'NONE',  ( -0.7071067811865474617, 0.7071067811865475727, 0.000000000000000000 ) ) ;
#214 = EDGE_CURVE ( 'NONE', #106, #85, #296, .T. ) ;
#215 = DIRECTION ( 'NONE',  ( 1.000000000000000000, -2.220446049250313081E-16, 0.000000000000000000 ) ) ;
#216 = DIRECTION ( 'NONE',  ( 0.000000000000000000, 0.000000000000000000, 1.000000000000000000 ) ) ;
#217 = LOCAL_TIME ( 10, 1, 29.00000000000000000, #258 ) ;
#218 = CARTESIAN_POINT ( 'NONE',  ( 10.00000000000000000, 10.00000000000000000, -10.00000000000000000 ) ) ;
#219 = PLANE ( 'NONE',  #108 ) ;
#220 = AXIS2_PLACEMENT_3D ( 'NONE', #141, #213, #309 ) ;
#221 = DIRECTION ( 'NONE',  ( -0.000000000000000000, 1.000000000000000000, -0.000000000000000000 ) ) ;
#222 = DIRECTION ( 'NONE',  ( -1.000000000000000000, 0.000000000000000000, 0.000000000000000000 ) ) ;
#223 = EDGE_CURVE ( 'NONE', #51, #106, #46, .T. ) ;
#224 = ADVANCED_FACE ( 'NONE', ( #19 ), #290, .T. ) ;
#225 = APPROVAL_ROLE ( '' ) ;
#226 = ORIENTED_EDGE ( 'NONE', *, *, #295, .T. ) ;
#227 = LOCAL_TIME ( 10, 1, 29.00000000000000000, #1 ) ;
#228 = VECTOR ( 'NONE', #274, 1000.000000000000000 ) ;
#229 = APPROVAL_STATUS ( 'not_yet_approved' ) ;
#230 = APPROVAL ( #186, 'UNSPECIFIED' ) ;
#231 = VERTEX_POINT ( 'NONE', #142 ) ;
#232 = PERSON_AND_ORGANIZATION ( #310, #117 ) ;
#233 = ORIENTED_EDGE ( 'NONE', *, *, #300, .F. ) ;
#234 = ORIENTED_EDGE ( 'NONE', *, *, #179, .F. ) ;
#235 = LOCAL_TIME ( 10, 1, 29.00000000000000000, #73 ) ;
#236 = DIRECTION ( 'NONE',  ( 2.220446049250313081E-16, 1.000000000000000000, 0.000000000000000000 ) ) ;
#237 = DIRECTION ( 'NONE',  ( -0.7071067811865475727, -0.7071067811865474617, 0.000000000000000000 ) ) ;
#238 = DATE_TIME_ROLE ( 'creation_date' ) ;
#239 = CARTESIAN_POINT ( 'NONE',  ( 10.00000000000000178, -10.00000000000000000, 10.00000000000000000 ) ) ;
#240 = FACE_OUTER_BOUND ( 'NONE', #188, .T. ) ;
#241 = VECTOR ( 'NONE', #237, 1000.000000000000000 ) ;
#242 = LINE ( 'NONE', #17, #32 ) ;
#243 = APPLICATION_CONTEXT ( 'configuration controlled 3d designs of mechanical parts and assemblies' ) ;
#244 = DIRECTION ( 'NONE',  ( 2.220446049250313081E-16, 1.000000000000000000, 0.000000000000000000 ) ) ;
#245 = DIRECTION ( 'NONE',  ( 0.000000000000000000, 1.000000000000000000, 0.000000000000000000 ) ) ;
#246 = DIRECTION ( 'NONE',  ( -0.000000000000000000, -0.000000000000000000, -1.000000000000000000 ) ) ;
#247 = CARTESIAN_POINT ( 'NONE',  ( 10.00000000000000000, 10.00000000000000000, 10.00000000000000000 ) ) ;
#248 = VECTOR ( 'NONE', #178, 1000.000000000000000 ) ;
#249 = PRODUCT_DEFINITION_SHAPE ( 'NONE', 'NONE',  #144 ) ;
#250 = PLANE ( 'NONE',  #282 ) ;
#251 = MANIFOLD_SOLID_BREP ( '¾µÏ', #128 ) ;
#252 = CALENDAR_DATE ( 2021, 5, 1 ) ;
#253 = ADVANCED_BREP_SHAPE_REPRESENTATION ( 'BK7-LNPBSC-20-532', ( #35, #251, #288 ), #267 ) ;
#254 = ORIENTED_EDGE ( 'NONE', *, *, #44, .T. ) ;
#255 = DATE_AND_TIME ( #158, #69 ) ;
#256 = VERTEX_POINT ( 'NONE', #22 ) ;
#257 = CC_DESIGN_APPROVAL ( #230, ( #49 ) ) ;
#258 = COORDINATED_UNIVERSAL_TIME_OFFSET ( 8, 0, .AHEAD. ) ;
#259 = VERTEX_POINT ( 'NONE', #272 ) ;
#260 = ORIENTED_EDGE ( 'NONE', *, *, #93, .F. ) ;
#261 = ORIENTED_EDGE ( 'NONE', *, *, #201, .F. ) ;
#262 = AXIS2_PLACEMENT_3D ( 'NONE', #145, #100, #97 ) ;
#263 = LINE ( 'NONE', #218, #298 ) ;
#264 = PERSON_AND_ORGANIZATION_ROLE ( 'creator' ) ;
#265 = CARTESIAN_POINT ( 'NONE',  ( 10.00000000000000178, 9.999999999999998224, -10.00000000000000000 ) ) ;
#266 = DIRECTION ( 'NONE',  ( -0.000000000000000000, -0.000000000000000000, -1.000000000000000000 ) ) ;
#267 =( GEOMETRIC_REPRESENTATION_CONTEXT ( 3 ) GLOBAL_UNCERTAINTY_ASSIGNED_CONTEXT ( ( #98 ) ) GLOBAL_UNIT_ASSIGNED_CONTEXT ( ( #67, #320, #269 ) ) REPRESENTATION_CONTEXT ( 'NONE', 'WORKASPACE' ) );
#268 = PLANE ( 'NONE',  #26 ) ;
#269 =( NAMED_UNIT ( * ) SI_UNIT ( $, .STERADIAN. ) SOLID_ANGLE_UNIT ( ) );
#270 = DIRECTION ( 'NONE',  ( -0.000000000000000000, 1.000000000000000000, -0.000000000000000000 ) ) ;
#271 = PRODUCT ( 'BK7-LNPBSC-20-532', 'BK7-LNPBSC-20-532', '', ( #299 ) ) ;
#272 = CARTESIAN_POINT ( 'NONE',  ( 10.00000000000000000, 10.00000000000000000, 10.00000000000000000 ) ) ;
#273 = EDGE_CURVE ( 'NONE', #51, #31, #147, .T. ) ;
#274 = DIRECTION ( 'NONE',  ( 2.220446049250313081E-16, 1.000000000000000000, 0.000000000000000000 ) ) ;
#275 = APPROVAL_DATE_TIME ( #181, #175 ) ;
#276 = APPLICATION_PROTOCOL_DEFINITION ( 'international standard', 'config_control_design', 1994, #143 ) ;
#277 = CARTESIAN_POINT ( 'NONE',  ( -9.999999999999998224, 10.00000000000000355, -10.00000000000000000 ) ) ;
#278 = APPROVAL_PERSON_ORGANIZATION ( #50, #175, #225 ) ;
#279 = CARTESIAN_POINT ( 'NONE',  ( -10.00000000000000178, -9.999999999999996447, -10.00000000000000000 ) ) ;
#280 = VERTEX_POINT ( 'NONE', #71 ) ;
#281 = CARTESIAN_POINT ( 'NONE',  ( 10.00000000000000000, 10.00000000000000000, 10.00000000000000000 ) ) ;
#282 = AXIS2_PLACEMENT_3D ( 'NONE', #45, #317, #122 ) ;
#283 = CARTESIAN_POINT ( 'NONE',  ( 0.000000000000000000, 0.000000000000000000, 10.00000000000000000 ) ) ;
#284 = EDGE_LOOP ( 'NONE', ( #168, #77, #2 ) ) ;
#285 = DIRECTION ( 'NONE',  ( 0.000000000000000000, 0.000000000000000000, 1.000000000000000000 ) ) ;
#286 = LINE ( 'NONE', #239, #41 ) ;
#287 = DIRECTION ( 'NONE',  ( 0.7071067811865475727, 0.7071067811865474617, 0.000000000000000000 ) ) ;
#288 = AXIS2_PLACEMENT_3D ( 'NONE', #183, #285, #125 ) ;
#289 = PLANE ( 'NONE',  #64 ) ;
#290 = PLANE ( 'NONE',  #262 ) ;
#291 = ADVANCED_FACE ( 'NONE', ( #24 ), #289, .F. ) ;
#292 = DIRECTION ( 'NONE',  ( 1.000000000000000000, -2.220446049250313081E-16, 0.000000000000000000 ) ) ;
#293 = CC_DESIGN_PERSON_AND_ORGANIZATION_ASSIGNMENT ( #27, #52, ( #271 ) ) ;
#294 = CC_DESIGN_DATE_AND_TIME_ASSIGNMENT ( #135, #207, ( #49 ) ) ;
#295 = EDGE_CURVE ( 'NONE', #157, #4, #180, .T. ) ;
#296 = LINE ( 'NONE', #116, #248 ) ;
#297 = EDGE_LOOP ( 'NONE', ( #58, #206, #212 ) ) ;
#298 = VECTOR ( 'NONE', #215, 1000.000000000000000 ) ;
#299 = MECHANICAL_CONTEXT ( 'NONE', #243, 'mechanical' ) ;
#300 = EDGE_CURVE ( 'NONE', #126, #157, #319, .T. ) ;
#301 = FACE_OUTER_BOUND ( 'NONE', #189, .T. ) ;
#302 = APPLICATION_PROTOCOL_DEFINITION ( 'international standard', 'config_control_design', 1994, #243 ) ;
#303 = LINE ( 'NONE', #79, #192 ) ;
#304 = APPROVAL_ROLE ( '' ) ;
#305 = EDGE_LOOP ( 'NONE', ( #260, #107, #233 ) ) ;
#306 = ORIENTED_EDGE ( 'NONE', *, *, #80, .F. ) ;
#307 = CC_DESIGN_APPROVAL ( #20, ( #133 ) ) ;
#308 = ORIENTED_EDGE ( 'NONE', *, *, #23, .F. ) ;
#309 = DIRECTION ( 'NONE',  ( 0.7071067811865475727, 0.7071067811865474617, 0.000000000000000000 ) ) ;
#310 = PERSON ( 'UNSPECIFIED', 'UNSPECIFIED', 'UNSPECIFIED', ('UNSPECIFIED'), ('UNSPECIFIED'), ('UNSPECIFIED') ) ;
#311 = CARTESIAN_POINT ( 'NONE',  ( -9.999999999999998224, -10.00000000000000000, 10.00000000000000000 ) ) ;
#312 = ORIENTED_EDGE ( 'NONE', *, *, #214, .T. ) ;
#313 = VECTOR ( 'NONE', #246, 1000.000000000000000 ) ;
#314 = PLANE ( 'NONE',  #15 ) ;
#315 = LINE ( 'NONE', #65, #75 ) ;
#316 = DIRECTION ( 'NONE',  ( 0.000000000000000000, -0.000000000000000000, 1.000000000000000000 ) ) ;
#317 = DIRECTION ( 'NONE',  ( -0.000000000000000000, 0.000000000000000000, 1.000000000000000000 ) ) ;
#318 = VECTOR ( 'NONE', #270, 1000.000000000000000 ) ;
#319 = LINE ( 'NONE', #120, #228 ) ;
#320 =( NAMED_UNIT ( * ) PLANE_ANGLE_UNIT ( ) SI_UNIT ( $, .RADIAN. ) );
#321 = CARTESIAN_POINT ( 'NONE',  ( 10.00000000000000178, 9.999999999999998224, 10.00000000000000000 ) ) ;
ENDSEC;
END-ISO-10303-21;
